ISO-10303-21;
HEADER;
/* Generated by software containing ST-Developer
 * from STEP Tools, Inc. (www.steptools.com) 
 */
/* OPTION: strings as raw bytes, not using required /X/ escapes */

FILE_DESCRIPTION(
/* description */ ('Unknown'),
/* implementation_level */ '2;1');

FILE_NAME(
/* name */ 'X4-DSN1010-4 ',
/* time_stamp */ '2024-07-10T10:10:50+08:00',
/* author */ ('Unknown'),
/* organization */ ('Unknown'),
/* preprocessor_version */ 'ST-DEVELOPER v18.102',
/* originating_system */ 'Solid Edge',
/* authorisation */ 'Unknown');

FILE_SCHEMA (('AUTOMOTIVE_DESIGN {1 0 10303 214 3 1 1}'));
ENDSEC;

DATA;
#10=PROPERTY_DEFINITION_REPRESENTATION(#14,#12);
#11=PROPERTY_DEFINITION_REPRESENTATION(#15,#13);
#12=REPRESENTATION('',(#16),#588);
#13=REPRESENTATION('',(#17),#588);
#14=PROPERTY_DEFINITION('pmi validation property','',#597);
#15=PROPERTY_DEFINITION('pmi validation property','',#597);
#16=VALUE_REPRESENTATION_ITEM('number of annotations',COUNT_MEASURE(0.));
#17=VALUE_REPRESENTATION_ITEM('number of views',COUNT_MEASURE(0.));
#18=CONTEXT_DEPENDENT_SHAPE_REPRESENTATION(#22,#599);
#19=CONTEXT_DEPENDENT_SHAPE_REPRESENTATION(#23,#601);
#20=NEXT_ASSEMBLY_USAGE_OCCURRENCE('Compound','Compound','Compound',#602,
#603,'');
#21=NEXT_ASSEMBLY_USAGE_OCCURRENCE('plating','plating','plating',#602,#604,
'');
#22=(
REPRESENTATION_RELATIONSHIP(' ',' ',#356,#357)
REPRESENTATION_RELATIONSHIP_WITH_TRANSFORMATION(#24)
SHAPE_REPRESENTATION_RELATIONSHIP()
);
#23=(
REPRESENTATION_RELATIONSHIP(' ',' ',#358,#357)
REPRESENTATION_RELATIONSHIP_WITH_TRANSFORMATION(#25)
SHAPE_REPRESENTATION_RELATIONSHIP()
);
#24=ITEM_DEFINED_TRANSFORMATION(' ',' ',#359,#382);
#25=ITEM_DEFINED_TRANSFORMATION(' ',' ',#359,#403);
#26=SHAPE_REPRESENTATION_RELATIONSHIP('','',#356,#28);
#27=SHAPE_REPRESENTATION_RELATIONSHIP('','',#358,#29);
#28=ADVANCED_BREP_SHAPE_REPRESENTATION('',(#348),#589);
#29=ADVANCED_BREP_SHAPE_REPRESENTATION('',(#349,#350,#351,#352),#590);
#30=LINE('',#532,#42);
#31=LINE('',#535,#43);
#32=LINE('',#537,#44);
#33=LINE('',#539,#45);
#34=LINE('',#541,#46);
#35=LINE('',#543,#47);
#36=LINE('',#545,#48);
#37=LINE('',#547,#49);
#38=LINE('',#549,#50);
#39=LINE('',#551,#51);
#40=LINE('',#553,#52);
#41=LINE('',#554,#53);
#42=VECTOR('',#440,1000.);
#43=VECTOR('',#441,1000.);
#44=VECTOR('',#442,1000.);
#45=VECTOR('',#443,1000.);
#46=VECTOR('',#446,1000.);
#47=VECTOR('',#447,1000.);
#48=VECTOR('',#448,1000.);
#49=VECTOR('',#451,1000.);
#50=VECTOR('',#452,1000.);
#51=VECTOR('',#453,1000.);
#52=VECTOR('',#456,1000.);
#53=VECTOR('',#457,1000.);
#54=PLANE('',#363);
#55=PLANE('',#367);
#56=PLANE('',#371);
#57=PLANE('',#375);
#58=PLANE('',#376);
#59=PLANE('',#377);
#60=PLANE('',#378);
#61=PLANE('',#379);
#62=PLANE('',#380);
#63=PLANE('',#381);
#64=PLANE('',#386);
#65=PLANE('',#387);
#66=PLANE('',#391);
#67=PLANE('',#392);
#68=PLANE('',#396);
#69=PLANE('',#397);
#70=PLANE('',#401);
#71=PLANE('',#402);
#72=ORIENTED_EDGE('',*,*,#128,.F.);
#73=ORIENTED_EDGE('',*,*,#129,.F.);
#74=ORIENTED_EDGE('',*,*,#128,.T.);
#75=ORIENTED_EDGE('',*,*,#130,.F.);
#76=ORIENTED_EDGE('',*,*,#131,.F.);
#77=ORIENTED_EDGE('',*,*,#130,.T.);
#78=ORIENTED_EDGE('',*,*,#132,.F.);
#79=ORIENTED_EDGE('',*,*,#133,.F.);
#80=ORIENTED_EDGE('',*,*,#132,.T.);
#81=ORIENTED_EDGE('',*,*,#134,.F.);
#82=ORIENTED_EDGE('',*,*,#135,.F.);
#83=ORIENTED_EDGE('',*,*,#134,.T.);
#84=ORIENTED_EDGE('',*,*,#136,.F.);
#85=ORIENTED_EDGE('',*,*,#137,.F.);
#86=ORIENTED_EDGE('',*,*,#138,.T.);
#87=ORIENTED_EDGE('',*,*,#139,.T.);
#88=ORIENTED_EDGE('',*,*,#140,.F.);
#89=ORIENTED_EDGE('',*,*,#139,.F.);
#90=ORIENTED_EDGE('',*,*,#141,.T.);
#91=ORIENTED_EDGE('',*,*,#142,.T.);
#92=ORIENTED_EDGE('',*,*,#143,.F.);
#93=ORIENTED_EDGE('',*,*,#142,.F.);
#94=ORIENTED_EDGE('',*,*,#144,.T.);
#95=ORIENTED_EDGE('',*,*,#145,.T.);
#96=ORIENTED_EDGE('',*,*,#146,.F.);
#97=ORIENTED_EDGE('',*,*,#145,.F.);
#98=ORIENTED_EDGE('',*,*,#147,.T.);
#99=ORIENTED_EDGE('',*,*,#137,.T.);
#100=ORIENTED_EDGE('',*,*,#129,.T.);
#101=ORIENTED_EDGE('',*,*,#131,.T.);
#102=ORIENTED_EDGE('',*,*,#133,.T.);
#103=ORIENTED_EDGE('',*,*,#135,.T.);
#104=ORIENTED_EDGE('',*,*,#138,.F.);
#105=ORIENTED_EDGE('',*,*,#147,.F.);
#106=ORIENTED_EDGE('',*,*,#144,.F.);
#107=ORIENTED_EDGE('',*,*,#141,.F.);
#108=ORIENTED_EDGE('',*,*,#136,.T.);
#109=ORIENTED_EDGE('',*,*,#140,.T.);
#110=ORIENTED_EDGE('',*,*,#143,.T.);
#111=ORIENTED_EDGE('',*,*,#146,.T.);
#112=ORIENTED_EDGE('',*,*,#148,.T.);
#113=ORIENTED_EDGE('',*,*,#149,.F.);
#114=ORIENTED_EDGE('',*,*,#148,.F.);
#115=ORIENTED_EDGE('',*,*,#149,.T.);
#116=ORIENTED_EDGE('',*,*,#150,.T.);
#117=ORIENTED_EDGE('',*,*,#151,.F.);
#118=ORIENTED_EDGE('',*,*,#150,.F.);
#119=ORIENTED_EDGE('',*,*,#151,.T.);
#120=ORIENTED_EDGE('',*,*,#152,.T.);
#121=ORIENTED_EDGE('',*,*,#153,.F.);
#122=ORIENTED_EDGE('',*,*,#152,.F.);
#123=ORIENTED_EDGE('',*,*,#153,.T.);
#124=ORIENTED_EDGE('',*,*,#154,.T.);
#125=ORIENTED_EDGE('',*,*,#155,.F.);
#126=ORIENTED_EDGE('',*,*,#154,.F.);
#127=ORIENTED_EDGE('',*,*,#155,.T.);
#128=EDGE_CURVE('',#156,#156,#180,.T.);
#129=EDGE_CURVE('',#157,#157,#181,.T.);
#130=EDGE_CURVE('',#158,#158,#182,.T.);
#131=EDGE_CURVE('',#159,#159,#183,.T.);
#132=EDGE_CURVE('',#160,#160,#184,.T.);
#133=EDGE_CURVE('',#161,#161,#185,.T.);
#134=EDGE_CURVE('',#162,#162,#186,.T.);
#135=EDGE_CURVE('',#163,#163,#187,.T.);
#136=EDGE_CURVE('',#164,#165,#30,.T.);
#137=EDGE_CURVE('',#166,#164,#31,.T.);
#138=EDGE_CURVE('',#166,#167,#32,.T.);
#139=EDGE_CURVE('',#167,#165,#33,.T.);
#140=EDGE_CURVE('',#165,#168,#34,.T.);
#141=EDGE_CURVE('',#167,#169,#35,.T.);
#142=EDGE_CURVE('',#169,#168,#36,.T.);
#143=EDGE_CURVE('',#168,#170,#37,.T.);
#144=EDGE_CURVE('',#169,#171,#38,.T.);
#145=EDGE_CURVE('',#171,#170,#39,.T.);
#146=EDGE_CURVE('',#170,#164,#40,.T.);
#147=EDGE_CURVE('',#171,#166,#41,.T.);
#148=EDGE_CURVE('',#172,#172,#188,.T.);
#149=EDGE_CURVE('',#173,#173,#189,.T.);
#150=EDGE_CURVE('',#174,#174,#190,.T.);
#151=EDGE_CURVE('',#175,#175,#191,.T.);
#152=EDGE_CURVE('',#176,#176,#192,.T.);
#153=EDGE_CURVE('',#177,#177,#193,.T.);
#154=EDGE_CURVE('',#178,#178,#194,.T.);
#155=EDGE_CURVE('',#179,#179,#195,.T.);
#156=VERTEX_POINT('',#509);
#157=VERTEX_POINT('',#511);
#158=VERTEX_POINT('',#515);
#159=VERTEX_POINT('',#517);
#160=VERTEX_POINT('',#521);
#161=VERTEX_POINT('',#523);
#162=VERTEX_POINT('',#527);
#163=VERTEX_POINT('',#529);
#164=VERTEX_POINT('',#533);
#165=VERTEX_POINT('',#534);
#166=VERTEX_POINT('',#536);
#167=VERTEX_POINT('',#538);
#168=VERTEX_POINT('',#542);
#169=VERTEX_POINT('',#544);
#170=VERTEX_POINT('',#548);
#171=VERTEX_POINT('',#550);
#172=VERTEX_POINT('',#560);
#173=VERTEX_POINT('',#562);
#174=VERTEX_POINT('',#567);
#175=VERTEX_POINT('',#569);
#176=VERTEX_POINT('',#574);
#177=VERTEX_POINT('',#576);
#178=VERTEX_POINT('',#581);
#179=VERTEX_POINT('',#583);
#180=CIRCLE('',#361,0.125);
#181=CIRCLE('',#362,0.125);
#182=CIRCLE('',#365,0.125);
#183=CIRCLE('',#366,0.125);
#184=CIRCLE('',#369,0.125);
#185=CIRCLE('',#370,0.125);
#186=CIRCLE('',#373,0.125);
#187=CIRCLE('',#374,0.125);
#188=CIRCLE('',#384,0.125);
#189=CIRCLE('',#385,0.125);
#190=CIRCLE('',#389,0.125);
#191=CIRCLE('',#390,0.125);
#192=CIRCLE('',#394,0.125);
#193=CIRCLE('',#395,0.125);
#194=CIRCLE('',#399,0.125);
#195=CIRCLE('',#400,0.125);
#196=EDGE_LOOP('',(#72));
#197=EDGE_LOOP('',(#73));
#198=EDGE_LOOP('',(#74));
#199=EDGE_LOOP('',(#75));
#200=EDGE_LOOP('',(#76));
#201=EDGE_LOOP('',(#77));
#202=EDGE_LOOP('',(#78));
#203=EDGE_LOOP('',(#79));
#204=EDGE_LOOP('',(#80));
#205=EDGE_LOOP('',(#81));
#206=EDGE_LOOP('',(#82));
#207=EDGE_LOOP('',(#83));
#208=EDGE_LOOP('',(#84,#85,#86,#87));
#209=EDGE_LOOP('',(#88,#89,#90,#91));
#210=EDGE_LOOP('',(#92,#93,#94,#95));
#211=EDGE_LOOP('',(#96,#97,#98,#99));
#212=EDGE_LOOP('',(#100));
#213=EDGE_LOOP('',(#101));
#214=EDGE_LOOP('',(#102));
#215=EDGE_LOOP('',(#103));
#216=EDGE_LOOP('',(#104,#105,#106,#107));
#217=EDGE_LOOP('',(#108,#109,#110,#111));
#218=EDGE_LOOP('',(#112));
#219=EDGE_LOOP('',(#113));
#220=EDGE_LOOP('',(#114));
#221=EDGE_LOOP('',(#115));
#222=EDGE_LOOP('',(#116));
#223=EDGE_LOOP('',(#117));
#224=EDGE_LOOP('',(#118));
#225=EDGE_LOOP('',(#119));
#226=EDGE_LOOP('',(#120));
#227=EDGE_LOOP('',(#121));
#228=EDGE_LOOP('',(#122));
#229=EDGE_LOOP('',(#123));
#230=EDGE_LOOP('',(#124));
#231=EDGE_LOOP('',(#125));
#232=EDGE_LOOP('',(#126));
#233=EDGE_LOOP('',(#127));
#234=FACE_BOUND('',#196,.T.);
#235=FACE_BOUND('',#197,.T.);
#236=FACE_BOUND('',#198,.T.);
#237=FACE_BOUND('',#199,.T.);
#238=FACE_BOUND('',#200,.T.);
#239=FACE_BOUND('',#201,.T.);
#240=FACE_BOUND('',#202,.T.);
#241=FACE_BOUND('',#203,.T.);
#242=FACE_BOUND('',#204,.T.);
#243=FACE_BOUND('',#205,.T.);
#244=FACE_BOUND('',#206,.T.);
#245=FACE_BOUND('',#207,.T.);
#246=FACE_BOUND('',#208,.T.);
#247=FACE_BOUND('',#209,.T.);
#248=FACE_BOUND('',#210,.T.);
#249=FACE_BOUND('',#211,.T.);
#250=FACE_BOUND('',#212,.T.);
#251=FACE_BOUND('',#213,.T.);
#252=FACE_BOUND('',#214,.T.);
#253=FACE_BOUND('',#215,.T.);
#254=FACE_BOUND('',#216,.T.);
#255=FACE_BOUND('',#217,.T.);
#256=FACE_BOUND('',#218,.T.);
#257=FACE_BOUND('',#219,.T.);
#258=FACE_BOUND('',#220,.T.);
#259=FACE_BOUND('',#221,.T.);
#260=FACE_BOUND('',#222,.T.);
#261=FACE_BOUND('',#223,.T.);
#262=FACE_BOUND('',#224,.T.);
#263=FACE_BOUND('',#225,.T.);
#264=FACE_BOUND('',#226,.T.);
#265=FACE_BOUND('',#227,.T.);
#266=FACE_BOUND('',#228,.T.);
#267=FACE_BOUND('',#229,.T.);
#268=FACE_BOUND('',#230,.T.);
#269=FACE_BOUND('',#231,.T.);
#270=FACE_BOUND('',#232,.T.);
#271=FACE_BOUND('',#233,.T.);
#272=CYLINDRICAL_SURFACE('',#360,0.125);
#273=CYLINDRICAL_SURFACE('',#364,0.125);
#274=CYLINDRICAL_SURFACE('',#368,0.125);
#275=CYLINDRICAL_SURFACE('',#372,0.125);
#276=CYLINDRICAL_SURFACE('',#383,0.125);
#277=CYLINDRICAL_SURFACE('',#388,0.125);
#278=CYLINDRICAL_SURFACE('',#393,0.125);
#279=CYLINDRICAL_SURFACE('',#398,0.125);
#280=ADVANCED_FACE('',(#234,#235),#272,.F.);
#281=ADVANCED_FACE('',(#236),#54,.T.);
#282=ADVANCED_FACE('',(#237,#238),#273,.F.);
#283=ADVANCED_FACE('',(#239),#55,.T.);
#284=ADVANCED_FACE('',(#240,#241),#274,.F.);
#285=ADVANCED_FACE('',(#242),#56,.T.);
#286=ADVANCED_FACE('',(#243,#244),#275,.F.);
#287=ADVANCED_FACE('',(#245),#57,.T.);
#288=ADVANCED_FACE('',(#246),#58,.T.);
#289=ADVANCED_FACE('',(#247),#59,.T.);
#290=ADVANCED_FACE('',(#248),#60,.T.);
#291=ADVANCED_FACE('',(#249),#61,.T.);
#292=ADVANCED_FACE('',(#250,#251,#252,#253,#254),#62,.F.);
#293=ADVANCED_FACE('',(#255),#63,.T.);
#294=ADVANCED_FACE('',(#256,#257),#276,.T.);
#295=ADVANCED_FACE('',(#258),#64,.F.);
#296=ADVANCED_FACE('',(#259),#65,.T.);
#297=ADVANCED_FACE('',(#260,#261),#277,.T.);
#298=ADVANCED_FACE('',(#262),#66,.F.);
#299=ADVANCED_FACE('',(#263),#67,.T.);
#300=ADVANCED_FACE('',(#264,#265),#278,.T.);
#301=ADVANCED_FACE('',(#266),#68,.F.);
#302=ADVANCED_FACE('',(#267),#69,.T.);
#303=ADVANCED_FACE('',(#268,#269),#279,.T.);
#304=ADVANCED_FACE('',(#270),#70,.F.);
#305=ADVANCED_FACE('',(#271),#71,.T.);
#306=CLOSED_SHELL('',(#280,#281,#282,#283,#284,#285,#286,#287,#288,#289,
#290,#291,#292,#293));
#307=CLOSED_SHELL('',(#294,#295,#296));
#308=CLOSED_SHELL('',(#297,#298,#299));
#309=CLOSED_SHELL('',(#300,#301,#302));
#310=CLOSED_SHELL('',(#303,#304,#305));
#311=STYLED_ITEM('',(#316),#348);
#312=STYLED_ITEM('',(#317),#349);
#313=STYLED_ITEM('',(#318),#350);
#314=STYLED_ITEM('',(#319),#351);
#315=STYLED_ITEM('',(#320),#352);
#316=PRESENTATION_STYLE_ASSIGNMENT((#321));
#317=PRESENTATION_STYLE_ASSIGNMENT((#322));
#318=PRESENTATION_STYLE_ASSIGNMENT((#323));
#319=PRESENTATION_STYLE_ASSIGNMENT((#324));
#320=PRESENTATION_STYLE_ASSIGNMENT((#325));
#321=SURFACE_STYLE_USAGE(.BOTH.,#326);
#322=SURFACE_STYLE_USAGE(.BOTH.,#327);
#323=SURFACE_STYLE_USAGE(.BOTH.,#328);
#324=SURFACE_STYLE_USAGE(.BOTH.,#329);
#325=SURFACE_STYLE_USAGE(.BOTH.,#330);
#326=SURFACE_SIDE_STYLE('',(#331));
#327=SURFACE_SIDE_STYLE('',(#332));
#328=SURFACE_SIDE_STYLE('',(#333));
#329=SURFACE_SIDE_STYLE('',(#334));
#330=SURFACE_SIDE_STYLE('',(#335));
#331=SURFACE_STYLE_FILL_AREA(#336);
#332=SURFACE_STYLE_FILL_AREA(#337);
#333=SURFACE_STYLE_FILL_AREA(#338);
#334=SURFACE_STYLE_FILL_AREA(#339);
#335=SURFACE_STYLE_FILL_AREA(#340);
#336=FILL_AREA_STYLE('',(#341));
#337=FILL_AREA_STYLE('',(#342));
#338=FILL_AREA_STYLE('',(#343));
#339=FILL_AREA_STYLE('',(#344));
#340=FILL_AREA_STYLE('',(#345));
#341=FILL_AREA_STYLE_COLOUR('',#346);
#342=FILL_AREA_STYLE_COLOUR('',#347);
#343=FILL_AREA_STYLE_COLOUR('',#347);
#344=FILL_AREA_STYLE_COLOUR('',#347);
#345=FILL_AREA_STYLE_COLOUR('',#347);
#346=COLOUR_RGB('',0.200000002980232,0.200000002980232,0.200000002980232);
#347=COLOUR_RGB('',0.87058824300766,0.633254885673523,0.172549024224281);
#348=MANIFOLD_SOLID_BREP('',#306);
#349=MANIFOLD_SOLID_BREP('',#307);
#350=MANIFOLD_SOLID_BREP('',#308);
#351=MANIFOLD_SOLID_BREP('',#309);
#352=MANIFOLD_SOLID_BREP('',#310);
#353=SHAPE_DEFINITION_REPRESENTATION(#598,#356);
#354=SHAPE_DEFINITION_REPRESENTATION(#597,#357);
#355=SHAPE_DEFINITION_REPRESENTATION(#600,#358);
#356=SHAPE_REPRESENTATION('Compound',(#359),#589);
#357=SHAPE_REPRESENTATION('X4-DSN1010-4 ',(#359,#382,#403),#588);
#358=SHAPE_REPRESENTATION('plating',(#359),#590);
#359=AXIS2_PLACEMENT_3D('',#506,#404,#405);
#360=AXIS2_PLACEMENT_3D('',#507,#406,#407);
#361=AXIS2_PLACEMENT_3D('',#508,#408,#409);
#362=AXIS2_PLACEMENT_3D('',#510,#410,#411);
#363=AXIS2_PLACEMENT_3D('',#512,#412,#413);
#364=AXIS2_PLACEMENT_3D('',#513,#414,#415);
#365=AXIS2_PLACEMENT_3D('',#514,#416,#417);
#366=AXIS2_PLACEMENT_3D('',#516,#418,#419);
#367=AXIS2_PLACEMENT_3D('',#518,#420,#421);
#368=AXIS2_PLACEMENT_3D('',#519,#422,#423);
#369=AXIS2_PLACEMENT_3D('',#520,#424,#425);
#370=AXIS2_PLACEMENT_3D('',#522,#426,#427);
#371=AXIS2_PLACEMENT_3D('',#524,#428,#429);
#372=AXIS2_PLACEMENT_3D('',#525,#430,#431);
#373=AXIS2_PLACEMENT_3D('',#526,#432,#433);
#374=AXIS2_PLACEMENT_3D('',#528,#434,#435);
#375=AXIS2_PLACEMENT_3D('',#530,#436,#437);
#376=AXIS2_PLACEMENT_3D('',#531,#438,#439);
#377=AXIS2_PLACEMENT_3D('',#540,#444,#445);
#378=AXIS2_PLACEMENT_3D('',#546,#449,#450);
#379=AXIS2_PLACEMENT_3D('',#552,#454,#455);
#380=AXIS2_PLACEMENT_3D('',#555,#458,#459);
#381=AXIS2_PLACEMENT_3D('',#556,#460,#461);
#382=AXIS2_PLACEMENT_3D('',#557,#462,#463);
#383=AXIS2_PLACEMENT_3D('',#558,#464,#465);
#384=AXIS2_PLACEMENT_3D('',#559,#466,#467);
#385=AXIS2_PLACEMENT_3D('',#561,#468,#469);
#386=AXIS2_PLACEMENT_3D('',#563,#470,#471);
#387=AXIS2_PLACEMENT_3D('',#564,#472,#473);
#388=AXIS2_PLACEMENT_3D('',#565,#474,#475);
#389=AXIS2_PLACEMENT_3D('',#566,#476,#477);
#390=AXIS2_PLACEMENT_3D('',#568,#478,#479);
#391=AXIS2_PLACEMENT_3D('',#570,#480,#481);
#392=AXIS2_PLACEMENT_3D('',#571,#482,#483);
#393=AXIS2_PLACEMENT_3D('',#572,#484,#485);
#394=AXIS2_PLACEMENT_3D('',#573,#486,#487);
#395=AXIS2_PLACEMENT_3D('',#575,#488,#489);
#396=AXIS2_PLACEMENT_3D('',#577,#490,#491);
#397=AXIS2_PLACEMENT_3D('',#578,#492,#493);
#398=AXIS2_PLACEMENT_3D('',#579,#494,#495);
#399=AXIS2_PLACEMENT_3D('',#580,#496,#497);
#400=AXIS2_PLACEMENT_3D('',#582,#498,#499);
#401=AXIS2_PLACEMENT_3D('',#584,#500,#501);
#402=AXIS2_PLACEMENT_3D('',#585,#502,#503);
#403=AXIS2_PLACEMENT_3D('',#586,#504,#505);
#404=DIRECTION('',(0.,0.,1.));
#405=DIRECTION('',(1.,0.,0.));
#406=DIRECTION('',(0.,-1.,0.));
#407=DIRECTION('',(0.,0.,-1.));
#408=DIRECTION('',(0.,-1.,0.));
#409=DIRECTION('',(1.,0.,0.));
#410=DIRECTION('',(0.,1.,0.));
#411=DIRECTION('',(0.,0.,1.));
#412=DIRECTION('',(0.,-1.,0.));
#413=DIRECTION('',(0.,0.,-1.));
#414=DIRECTION('',(0.,-1.,0.));
#415=DIRECTION('',(0.,0.,-1.));
#416=DIRECTION('',(0.,-1.,0.));
#417=DIRECTION('',(1.,0.,0.));
#418=DIRECTION('',(0.,1.,0.));
#419=DIRECTION('',(0.,0.,1.));
#420=DIRECTION('',(0.,-1.,0.));
#421=DIRECTION('',(0.,0.,-1.));
#422=DIRECTION('',(0.,-1.,0.));
#423=DIRECTION('',(0.,0.,-1.));
#424=DIRECTION('',(0.,-1.,0.));
#425=DIRECTION('',(1.,0.,0.));
#426=DIRECTION('',(0.,1.,0.));
#427=DIRECTION('',(0.,0.,1.));
#428=DIRECTION('',(0.,-1.,0.));
#429=DIRECTION('',(0.,0.,-1.));
#430=DIRECTION('',(0.,-1.,0.));
#431=DIRECTION('',(0.,0.,-1.));
#432=DIRECTION('',(0.,-1.,0.));
#433=DIRECTION('',(1.,0.,0.));
#434=DIRECTION('',(0.,1.,0.));
#435=DIRECTION('',(0.,0.,1.));
#436=DIRECTION('',(0.,-1.,0.));
#437=DIRECTION('',(0.,0.,-1.));
#438=DIRECTION('',(1.,0.,0.));
#439=DIRECTION('',(0.,0.,-1.));
#440=DIRECTION('',(0.,0.,-1.));
#441=DIRECTION('',(0.,1.,0.));
#442=DIRECTION('',(0.,0.,-1.));
#443=DIRECTION('',(0.,1.,0.));
#444=DIRECTION('',(0.,0.,-1.));
#445=DIRECTION('',(-1.,0.,0.));
#446=DIRECTION('',(-1.,0.,0.));
#447=DIRECTION('',(-1.,0.,0.));
#448=DIRECTION('',(0.,1.,0.));
#449=DIRECTION('',(-1.,0.,0.));
#450=DIRECTION('',(0.,0.,1.));
#451=DIRECTION('',(0.,0.,1.));
#452=DIRECTION('',(0.,0.,1.));
#453=DIRECTION('',(0.,1.,0.));
#454=DIRECTION('',(0.,0.,1.));
#455=DIRECTION('',(1.,0.,0.));
#456=DIRECTION('',(1.,0.,0.));
#457=DIRECTION('',(1.,0.,0.));
#458=DIRECTION('',(0.,1.,0.));
#459=DIRECTION('',(0.,0.,1.));
#460=DIRECTION('',(0.,1.,0.));
#461=DIRECTION('',(0.,0.,1.));
#462=DIRECTION('',(0.,0.,1.));
#463=DIRECTION('',(1.,0.,0.));
#464=DIRECTION('',(0.,-1.,0.));
#465=DIRECTION('',(0.,0.,-1.));
#466=DIRECTION('',(0.,-1.,0.));
#467=DIRECTION('',(1.,0.,0.));
#468=DIRECTION('',(0.,-1.,0.));
#469=DIRECTION('',(1.,0.,0.));
#470=DIRECTION('',(0.,-1.,0.));
#471=DIRECTION('',(0.,0.,-1.));
#472=DIRECTION('',(0.,-1.,0.));
#473=DIRECTION('',(0.,0.,-1.));
#474=DIRECTION('',(0.,-1.,0.));
#475=DIRECTION('',(0.,0.,-1.));
#476=DIRECTION('',(0.,-1.,0.));
#477=DIRECTION('',(1.,0.,0.));
#478=DIRECTION('',(0.,-1.,0.));
#479=DIRECTION('',(1.,0.,0.));
#480=DIRECTION('',(0.,-1.,0.));
#481=DIRECTION('',(0.,0.,-1.));
#482=DIRECTION('',(0.,-1.,0.));
#483=DIRECTION('',(0.,0.,-1.));
#484=DIRECTION('',(0.,-1.,0.));
#485=DIRECTION('',(0.,0.,-1.));
#486=DIRECTION('',(0.,-1.,0.));
#487=DIRECTION('',(1.,0.,0.));
#488=DIRECTION('',(0.,-1.,0.));
#489=DIRECTION('',(1.,0.,0.));
#490=DIRECTION('',(0.,-1.,0.));
#491=DIRECTION('',(0.,0.,-1.));
#492=DIRECTION('',(0.,-1.,0.));
#493=DIRECTION('',(0.,0.,-1.));
#494=DIRECTION('',(0.,-1.,0.));
#495=DIRECTION('',(0.,0.,-1.));
#496=DIRECTION('',(0.,-1.,0.));
#497=DIRECTION('',(1.,0.,0.));
#498=DIRECTION('',(0.,-1.,0.));
#499=DIRECTION('',(1.,0.,0.));
#500=DIRECTION('',(0.,-1.,0.));
#501=DIRECTION('',(0.,0.,-1.));
#502=DIRECTION('',(0.,-1.,0.));
#503=DIRECTION('',(0.,0.,-1.));
#504=DIRECTION('',(1.96444854327498E-32,1.38777878078145E-16,1.));
#505=DIRECTION('',(1.,-1.94289029309402E-16,7.31853378867149E-33));
#506=CARTESIAN_POINT('',(0.,0.,0.));
#507=CARTESIAN_POINT('',(-0.249999976764149,-0.0999999999999999,-0.250000011048539));
#508=CARTESIAN_POINT('',(-0.249999976764149,-0.0999999999999999,-0.250000011048539));
#509=CARTESIAN_POINT('',(-0.124999976764149,-0.0999999999999999,-0.250000011048539));
#510=CARTESIAN_POINT('',(-0.249999976764149,-0.12,-0.250000011048539));
#511=CARTESIAN_POINT('',(-0.249999976764149,-0.12,-0.125000011048539));
#512=CARTESIAN_POINT('',(-0.249999976764149,-0.0999999999999999,-0.250000011048539));
#513=CARTESIAN_POINT('',(0.250000023235907,-0.0999999999999999,-0.250000011048539));
#514=CARTESIAN_POINT('',(0.250000023235907,-0.0999999999999999,-0.250000011048539));
#515=CARTESIAN_POINT('',(0.375000023235907,-0.0999999999999999,-0.250000011048539));
#516=CARTESIAN_POINT('',(0.250000023235907,-0.12,-0.250000011048539));
#517=CARTESIAN_POINT('',(0.250000023235907,-0.12,-0.125000011048539));
#518=CARTESIAN_POINT('',(0.250000023235907,-0.0999999999999999,-0.250000011048539));
#519=CARTESIAN_POINT('',(0.250000023235907,-0.0999999999999999,0.249999988951628));
#520=CARTESIAN_POINT('',(0.250000023235907,-0.0999999999999999,0.249999988951628));
#521=CARTESIAN_POINT('',(0.375000023235907,-0.0999999999999999,0.249999988951628));
#522=CARTESIAN_POINT('',(0.250000023235907,-0.12,0.249999988951628));
#523=CARTESIAN_POINT('',(0.250000023235907,-0.12,0.374999988951628));
#524=CARTESIAN_POINT('',(0.250000023235907,-0.0999999999999999,0.249999988951628));
#525=CARTESIAN_POINT('',(-0.249999976764149,-0.0999999999999999,0.249999988951628));
#526=CARTESIAN_POINT('',(-0.249999976764149,-0.0999999999999999,0.249999988951628));
#527=CARTESIAN_POINT('',(-0.124999976764149,-0.0999999999999999,0.249999988951628));
#528=CARTESIAN_POINT('',(-0.249999976764149,-0.12,0.249999988951628));
#529=CARTESIAN_POINT('',(-0.249999976764149,-0.12,0.374999988951628));
#530=CARTESIAN_POINT('',(-0.249999976764149,-0.0999999999999999,0.249999988951628));
#531=CARTESIAN_POINT('',(0.505000000000089,-0.12,0.504999999999978));
#532=CARTESIAN_POINT('',(0.505000000000089,0.,0.504999999999978));
#533=CARTESIAN_POINT('',(0.505000000000089,0.,0.504999999999978));
#534=CARTESIAN_POINT('',(0.505000000000089,0.,-0.504999999999978));
#535=CARTESIAN_POINT('',(0.505000000000089,-0.12,0.504999999999978));
#536=CARTESIAN_POINT('',(0.505000000000089,-0.12,0.504999999999978));
#537=CARTESIAN_POINT('',(0.505000000000089,-0.12,0.504999999999978));
#538=CARTESIAN_POINT('',(0.505000000000089,-0.12,-0.504999999999978));
#539=CARTESIAN_POINT('',(0.505000000000089,-0.12,-0.504999999999978));
#540=CARTESIAN_POINT('',(0.505000000000089,-0.12,-0.504999999999978));
#541=CARTESIAN_POINT('',(0.505000000000089,0.,-0.504999999999978));
#542=CARTESIAN_POINT('',(-0.504999999999978,0.,-0.504999999999978));
#543=CARTESIAN_POINT('',(0.505000000000089,-0.12,-0.504999999999978));
#544=CARTESIAN_POINT('',(-0.504999999999978,-0.12,-0.504999999999978));
#545=CARTESIAN_POINT('',(-0.504999999999978,-0.12,-0.504999999999978));
#546=CARTESIAN_POINT('',(-0.504999999999978,-0.12,-0.504999999999978));
#547=CARTESIAN_POINT('',(-0.504999999999978,0.,-0.504999999999978));
#548=CARTESIAN_POINT('',(-0.504999999999978,0.,0.504999999999978));
#549=CARTESIAN_POINT('',(-0.504999999999978,-0.12,-0.504999999999978));
#550=CARTESIAN_POINT('',(-0.504999999999978,-0.12,0.504999999999978));
#551=CARTESIAN_POINT('',(-0.504999999999978,-0.12,0.504999999999978));
#552=CARTESIAN_POINT('',(-0.504999999999978,-0.12,0.504999999999978));
#553=CARTESIAN_POINT('',(-0.504999999999978,0.,0.504999999999978));
#554=CARTESIAN_POINT('',(-0.504999999999978,-0.12,0.504999999999978));
#555=CARTESIAN_POINT('',(0.,-0.12,0.));
#556=CARTESIAN_POINT('',(0.,0.,0.));
#557=CARTESIAN_POINT('',(0.955826455128428,0.,-0.167167106023377));
#558=CARTESIAN_POINT('',(-0.250000000000083,0.02,0.250000000000083));
#559=CARTESIAN_POINT('',(-0.250000000000083,0.02,0.250000000000083));
#560=CARTESIAN_POINT('',(-0.125000000000083,0.02,0.250000000000083));
#561=CARTESIAN_POINT('',(-0.250000000000083,0.,0.250000000000083));
#562=CARTESIAN_POINT('',(-0.125000000000083,0.,0.250000000000083));
#563=CARTESIAN_POINT('',(-0.250000000000083,0.02,0.250000000000083));
#564=CARTESIAN_POINT('',(-0.250000000000083,0.,0.250000000000083));
#565=CARTESIAN_POINT('',(0.249999999999972,0.02,0.250000000000083));
#566=CARTESIAN_POINT('',(0.249999999999972,0.02,0.250000000000083));
#567=CARTESIAN_POINT('',(0.374999999999972,0.02,0.250000000000083));
#568=CARTESIAN_POINT('',(0.249999999999972,0.,0.250000000000083));
#569=CARTESIAN_POINT('',(0.374999999999972,0.,0.250000000000083));
#570=CARTESIAN_POINT('',(0.249999999999972,0.02,0.250000000000083));
#571=CARTESIAN_POINT('',(0.249999999999972,0.,0.250000000000083));
#572=CARTESIAN_POINT('',(0.249999999999972,0.02,-0.250000000000083));
#573=CARTESIAN_POINT('',(0.249999999999972,0.02,-0.250000000000083));
#574=CARTESIAN_POINT('',(0.374999999999972,0.02,-0.250000000000083));
#575=CARTESIAN_POINT('',(0.249999999999972,0.,-0.250000000000083));
#576=CARTESIAN_POINT('',(0.374999999999972,0.,-0.250000000000083));
#577=CARTESIAN_POINT('',(0.249999999999972,0.02,-0.250000000000083));
#578=CARTESIAN_POINT('',(0.249999999999972,0.,-0.250000000000083));
#579=CARTESIAN_POINT('',(-0.250000000000083,0.02,-0.250000000000083));
#580=CARTESIAN_POINT('',(-0.250000000000083,0.02,-0.250000000000083));
#581=CARTESIAN_POINT('',(-0.125000000000083,0.02,-0.250000000000083));
#582=CARTESIAN_POINT('',(-0.250000000000083,0.,-0.250000000000083));
#583=CARTESIAN_POINT('',(-0.125000000000083,0.,-0.250000000000083));
#584=CARTESIAN_POINT('',(-0.250000000000083,0.02,-0.250000000000083));
#585=CARTESIAN_POINT('',(-0.250000000000083,0.,-0.250000000000083));
#586=CARTESIAN_POINT('',(0.955826478364363,-0.12,-0.167167117071833));
#587=MECHANICAL_DESIGN_GEOMETRIC_PRESENTATION_REPRESENTATION('',(#311,#312,
#313,#314,#315),#588);
#588=(
GEOMETRIC_REPRESENTATION_CONTEXT(3)
GLOBAL_UNCERTAINTY_ASSIGNED_CONTEXT((#591))
GLOBAL_UNIT_ASSIGNED_CONTEXT((#596,#595,#594))
REPRESENTATION_CONTEXT('X4-DSN1010-4 ','TOP_LEVEL_ASSEMBLY_PART')
);
#589=(
GEOMETRIC_REPRESENTATION_CONTEXT(3)
GLOBAL_UNCERTAINTY_ASSIGNED_CONTEXT((#592))
GLOBAL_UNIT_ASSIGNED_CONTEXT((#596,#595,#594))
REPRESENTATION_CONTEXT('Compound','COMPONENT_PART')
);
#590=(
GEOMETRIC_REPRESENTATION_CONTEXT(3)
GLOBAL_UNCERTAINTY_ASSIGNED_CONTEXT((#593))
GLOBAL_UNIT_ASSIGNED_CONTEXT((#596,#595,#594))
REPRESENTATION_CONTEXT('plating','COMPONENT_PART')
);
#591=UNCERTAINTY_MEASURE_WITH_UNIT(LENGTH_MEASURE(0.005),#596,
'DISTANCE_ACCURACY_VALUE','Maximum Tolerance applied to model');
#592=UNCERTAINTY_MEASURE_WITH_UNIT(LENGTH_MEASURE(0.005),#596,
'DISTANCE_ACCURACY_VALUE','Maximum Tolerance applied to model');
#593=UNCERTAINTY_MEASURE_WITH_UNIT(LENGTH_MEASURE(0.005),#596,
'DISTANCE_ACCURACY_VALUE','Maximum Tolerance applied to model');
#594=(
NAMED_UNIT(*)
SI_UNIT($,.STERADIAN.)
SOLID_ANGLE_UNIT()
);
#595=(
NAMED_UNIT(*)
PLANE_ANGLE_UNIT()
SI_UNIT($,.RADIAN.)
);
#596=(
LENGTH_UNIT()
NAMED_UNIT(*)
SI_UNIT(.MILLI.,.METRE.)
);
#597=PRODUCT_DEFINITION_SHAPE('','',#602);
#598=PRODUCT_DEFINITION_SHAPE('','',#603);
#599=PRODUCT_DEFINITION_SHAPE(' ','NAUO PRDDFN',#20);
#600=PRODUCT_DEFINITION_SHAPE('','',#604);
#601=PRODUCT_DEFINITION_SHAPE(' ','NAUO PRDDFN',#21);
#602=PRODUCT_DEFINITION('','',#608,#605);
#603=PRODUCT_DEFINITION('','',#609,#606);
#604=PRODUCT_DEFINITION('','',#610,#607);
#605=PRODUCT_DEFINITION_CONTEXT('',#624,'design');
#606=PRODUCT_DEFINITION_CONTEXT('',#624,'design');
#607=PRODUCT_DEFINITION_CONTEXT('',#624,'design');
#608=PRODUCT_DEFINITION_FORMATION_WITH_SPECIFIED_SOURCE('','',#614,
 .NOT_KNOWN.);
#609=PRODUCT_DEFINITION_FORMATION_WITH_SPECIFIED_SOURCE('','',#615,
 .NOT_KNOWN.);
#610=PRODUCT_DEFINITION_FORMATION_WITH_SPECIFIED_SOURCE('','',#616,
 .NOT_KNOWN.);
#611=PRODUCT_RELATED_PRODUCT_CATEGORY('','',(#614));
#612=PRODUCT_RELATED_PRODUCT_CATEGORY('','',(#615));
#613=PRODUCT_RELATED_PRODUCT_CATEGORY('','',(#616));
#614=PRODUCT('X4-DSN1010-4 ','X4-DSN1010-4 ','X4-DSN1010-4 ',(#620));
#615=PRODUCT('Compound','Compound','Compound',(#621));
#616=PRODUCT('plating','plating','plating',(#622));
#617=PRODUCT_CATEGORY('','');
#618=PRODUCT_CATEGORY('','');
#619=PRODUCT_CATEGORY('','');
#620=PRODUCT_CONTEXT('',#624,'mechanical');
#621=PRODUCT_CONTEXT('',#624,'mechanical');
#622=PRODUCT_CONTEXT('',#624,'mechanical');
#623=APPLICATION_PROTOCOL_DEFINITION('international standard',
'automotive_design',2010,#624);
#624=APPLICATION_CONTEXT(
'core data for automotive mechanical design processes');
ENDSEC;
END-ISO-10303-21;
